Метелица Павел Булатников Ляпис Трубецкой




Список песен исполнителя Ляпис Трубецкой

Ляпис Трубецкой - Метелица (Павел Булатников)

Исполнитель: Ляпис Трубецкой

Название: Метелица (Павел Булатников)

Читали раз: 333

Текст песни:

Intro
Am E Am E
E|------------------------------------------------------|
Bb|-------0----------------0----------0------------------|
G|-----5----5---5----- 5----------4----4-------- 5-5--4-|
D|---7--------7------7----------6---------6------7-7--6-|
A|-0----------------8---------7----------------0--------|
E|------------------------------------------------------|

Am E Am E
E|----------------------------------------------------------|
Bb|-------0----------------0----------0------------13-13--12-|
G|-----5----5---5----- 5----------4----4--------14-14--13---|
D|---7--------7------7----------6---------6-----------------|
A|-0----------------8---------7----------------0------------|
E|----------------------------------------------------------|

(1-й куплет желательно играть перебором)
Am
Мы зашли в дорогое кафе
Dm
Как всегда я был при лаве
E
На тебе блестело колье
Am E
Официант нам подал оливье

Припев
A Dm
А за окном метель метет
G C
Белая красавица
Am Dm 2 раза
Скоро полночь настает
E A7
А бар не закрывается

Проигрыш
Am C E (8 раз)

Am
Музыкант играет шлягер
Dm
Вспоминаю нары, лагерь
E
Музыкант играет хит
Am E
А у меня душа болит

Припев

Проигрыш
Am C E (8 раз)

Solo

G|----6-4-6/7---7-6-4-0----9-9-7-7/6----11-11-9-9/11-|
D|-9-------------------------------------------------|

E|--------------------------------------------------------|
Bb|-12-14-15-14-12/15---15-14-7---15-15-14-8---17-17-15-14-|

E|-14-14-14-14--15-15-15-15---14-15-16-18-16-18-19-|
Bb|-------------------------------------------------|

Bm
Скоро утро наступает
Em
А тоска не отступает
F
Где здоровье, где года?
Bm F
Не вернуть их никогда

Припев
B Em
А за окном метель метет
A(V) D
Белая красавица
Bm Em
Скоро полночь настает
F Bm B7
А бар не закрывается

(Скоро утро настает
А бабки не кончаются)

Проигрыш
Bm D F (2 раза)



Комментарии:

Добавить комментарий



Каптча: